ISO-10303-21;
HEADER;
FILE_DESCRIPTION (( 'STEP AP203' ),
    '1' );
FILE_NAME ('BK7-RNDF-50-1.STEP',
    '2020-12-22T01:29:02',
    ( '' ),
    ( '' ),
    'SwSTEP 2.0',
    'SolidWorks 2020',
    '' );
FILE_SCHEMA (( 'CONFIG_CONTROL_DESIGN' ));
ENDSEC;

DATA;
#1 = ORIENTED_EDGE ( 'NONE', *, *, #105, .T. ) ;
#2 = APPROVAL_PERSON_ORGANIZATION ( #117, #48, #9 ) ;
#3 = CARTESIAN_POINT ( 'NONE',  ( -1.347111479062088602E-15, 25.00000000000000000, 0.000000000000000000 ) ) ;
#4 = PRODUCT_DEFINITION ( 'UNKNOWN', '', #107, #175 ) ;
#5 = LINE ( 'NONE', #101, #149 ) ;
#6 = ORGANIZATION ( 'UNSPECIFIED', 'UNSPECIFIED', '' ) ;
#7 = DIRECTION ( 'NONE',  ( 0.000000000000000000, 0.000000000000000000, -1.000000000000000000 ) ) ;
#8 = LOCAL_TIME ( 9, 29, 2.000000000000000000, #146 ) ;
#9 = APPROVAL_ROLE ( '' ) ;
#10 = PERSON ( 'UNSPECIFIED', 'UNSPECIFIED', 'UNSPECIFIED', ('UNSPECIFIED'), ('UNSPECIFIED'), ('UNSPECIFIED') ) ;
#11 = CC_DESIGN_PERSON_AND_ORGANIZATION_ASSIGNMENT ( #89, #104, ( #107 ) ) ;
#12 =( GEOMETRIC_REPRESENTATION_CONTEXT ( 3 ) GLOBAL_UNCERTAINTY_ASSIGNED_CONTEXT ( ( #167 ) ) GLOBAL_UNIT_ASSIGNED_CONTEXT ( ( #56, #142, #100 ) ) REPRESENTATION_CONTEXT ( 'NONE', 'WORKASPACE' ) );
#13 = PERSON_AND_ORGANIZATION_ROLE ( 'design_supplier' ) ;
#14 = SECURITY_CLASSIFICATION ( '', '', #23 ) ;
#15 = ORIENTED_EDGE ( 'NONE', *, *, #78, .T. ) ;
#16 = ORIENTED_EDGE ( 'NONE', *, *, #164, .T. ) ;
#17 = CC_DESIGN_APPROVAL ( #53, ( #107 ) ) ;
#18 = CARTESIAN_POINT ( 'NONE',  ( 1.999999999999997113, 0.000000000000000000, 0.000000000000000000 ) ) ;
#19 = ADVANCED_FACE ( 'NONE', ( #84 ), #55, .F. ) ;
#20 = CARTESIAN_POINT ( 'NONE',  ( 0.000000000000000000, 0.000000000000000000, 0.000000000000000000 ) ) ;
#21 = CARTESIAN_POINT ( 'NONE',  ( 0.000000000000000000, 0.000000000000000000, 0.000000000000000000 ) ) ;
#22 = FACE_OUTER_BOUND ( 'NONE', #123, .T. ) ;
#23 = SECURITY_CLASSIFICATION_LEVEL ( 'unclassified' ) ;
#24 = PERSON_AND_ORGANIZATION ( #10, #6 ) ;
#25 = PERSON_AND_ORGANIZATION ( #10, #6 ) ;
#26 = PERSON_AND_ORGANIZATION ( #10, #6 ) ;
#27 = APPLICATION_CONTEXT ( 'configuration controlled 3d designs of mechanical parts and assemblies' ) ;
#28 = EDGE_LOOP ( 'NONE', ( #94, #79 ) ) ;
#29 = ORIENTED_EDGE ( 'NONE', *, *, #143, .F. ) ;
#30 = CIRCLE ( 'NONE', #97, 25.00000000000000000 ) ;
#31 = DIRECTION ( 'NONE',  ( 1.000000000000000000, 0.000000000000000000, 0.000000000000000000 ) ) ;
#32 = DIRECTION ( 'NONE',  ( -1.000000000000000000, 0.000000000000000000, -0.000000000000000000 ) ) ;
#33 = CARTESIAN_POINT ( 'NONE',  ( -2.694222958124177204E-15, 3.061616997868383043E-15, -25.00000000000000000 ) ) ;
#34 = DIRECTION ( 'NONE',  ( 0.000000000000000000, 0.000000000000000000, 1.000000000000000000 ) ) ;
#35 = CARTESIAN_POINT ( 'NONE',  ( -2.694222958124177204E-15, 0.000000000000000000, 25.00000000000000000 ) ) ;
#36 = APPROVAL_STATUS ( 'not_yet_approved' ) ;
#37 = EDGE_CURVE ( 'NONE', #80, #156, #134, .T. ) ;
#38 = COORDINATED_UNIVERSAL_TIME_OFFSET ( 8, 0, .AHEAD. ) ;
#39 = CLOSED_SHELL ( 'NONE', ( #159, #135, #111, #19 ) ) ;
#40 = SHAPE_DEFINITION_REPRESENTATION ( #131, #112 ) ;
#41 = CALENDAR_DATE ( 2020, 22, 12 ) ;
#42 = VERTEX_POINT ( 'NONE', #33 ) ;
#43 = CC_DESIGN_DATE_AND_TIME_ASSIGNMENT ( #106, #90, ( #4 ) ) ;
#44 = CARTESIAN_POINT ( 'NONE',  ( -2.694222958124177204E-15, 0.000000000000000000, 0.000000000000000000 ) ) ;
#45 = DIRECTION ( 'NONE',  ( -1.000000000000000000, -0.000000000000000000, -0.000000000000000000 ) ) ;
#46 = ORIENTED_EDGE ( 'NONE', *, *, #164, .F. ) ;
#47 = COORDINATED_UNIVERSAL_TIME_OFFSET ( 8, 0, .AHEAD. ) ;
#48 = APPROVAL ( #170, 'UNSPECIFIED' ) ;
#49 = APPROVAL_ROLE ( '' ) ;
#50 = APPROVAL_DATE_TIME ( #157, #102 ) ;
#51 = DATE_AND_TIME ( #75, #52 ) ;
#52 = LOCAL_TIME ( 9, 29, 2.000000000000000000, #172 ) ;
#53 = APPROVAL ( #36, 'UNSPECIFIED' ) ;
#54 = EDGE_LOOP ( 'NONE', ( #86, #1, #46, #110 ) ) ;
#55 = PLANE ( 'NONE',  #168 ) ;
#56 =( LENGTH_UNIT ( ) NAMED_UNIT ( * ) SI_UNIT ( .MILLI., .METRE. ) );
#57 = DIRECTION ( 'NONE',  ( -1.000000000000000000, -0.000000000000000000, -0.000000000000000000 ) ) ;
#58 = APPROVAL_STATUS ( 'not_yet_approved' ) ;
#59 = APPROVAL_ROLE ( '' ) ;
#60 = CC_DESIGN_APPROVAL ( #48, ( #4 ) ) ;
#61 = CALENDAR_DATE ( 2020, 22, 12 ) ;
#62 = AXIS2_PLACEMENT_3D ( 'NONE', #95, #45, #140 ) ;
#63 = ORIENTED_EDGE ( 'NONE', *, *, #82, .T. ) ;
#64 = DIRECTION ( 'NONE',  ( -1.000000000000000000, -0.000000000000000000, -0.000000000000000000 ) ) ;
#65 = DIRECTION ( 'NONE',  ( 0.000000000000000000, 0.000000000000000000, 1.000000000000000000 ) ) ;
#66 = CC_DESIGN_PERSON_AND_ORGANIZATION_ASSIGNMENT ( #91, #133, ( #77 ) ) ;
#67 = DIRECTION ( 'NONE',  ( -1.000000000000000000, -0.000000000000000000, -0.000000000000000000 ) ) ;
#68 = CC_DESIGN_SECURITY_CLASSIFICATION ( #14, ( #107 ) ) ;
#69 = PRODUCT_RELATED_PRODUCT_CATEGORY ( 'detail', '', ( #77 ) ) ;
#70 = DIRECTION ( 'NONE',  ( 0.000000000000000000, 0.000000000000000000, 1.000000000000000000 ) ) ;
#71 = APPLICATION_PROTOCOL_DEFINITION ( 'international standard', 'config_control_design', 1994, #27 ) ;
#72 = CALENDAR_DATE ( 2020, 22, 12 ) ;
#73 = LOCAL_TIME ( 9, 29, 2.000000000000000000, #118 ) ;
#74 = APPROVAL_DATE_TIME ( #144, #53 ) ;
#75 = CALENDAR_DATE ( 2020, 22, 12 ) ;
#76 = MECHANICAL_CONTEXT ( 'NONE', #27, 'mechanical' ) ;
#77 = PRODUCT ( 'BK7-RNDF-50-1', 'BK7-RNDF-50-1', '', ( #76 ) ) ;
#78 = EDGE_CURVE ( 'NONE', #80, #153, #5, .T. ) ;
#79 = ORIENTED_EDGE ( 'NONE', *, *, #82, .F. ) ;
#80 = VERTEX_POINT ( 'NONE', #166 ) ;
#81 = DIRECTION ( 'NONE',  ( -0.000000000000000000, 0.000000000000000000, 1.000000000000000000 ) ) ;
#82 = EDGE_CURVE ( 'NONE', #156, #80, #30, .T. ) ;
#83 = FACE_OUTER_BOUND ( 'NONE', #28, .T. ) ;
#84 = FACE_OUTER_BOUND ( 'NONE', #124, .T. ) ;
#85 = AXIS2_PLACEMENT_3D ( 'NONE', #128, #174, #87 ) ;
#86 = ORIENTED_EDGE ( 'NONE', *, *, #37, .T. ) ;
#87 = DIRECTION ( 'NONE',  ( 1.000000000000000000, 0.000000000000000000, 0.000000000000000000 ) ) ;
#88 = LOCAL_TIME ( 9, 29, 2.000000000000000000, #47 ) ;
#89 = PERSON_AND_ORGANIZATION ( #10, #6 ) ;
#90 = DATE_TIME_ROLE ( 'creation_date' ) ;
#91 = PERSON_AND_ORGANIZATION ( #10, #6 ) ;
#92 = AXIS2_PLACEMENT_3D ( 'NONE', #20, #138, #65 ) ;
#93 = APPROVAL_PERSON_ORGANIZATION ( #24, #53, #49 ) ;
#94 = ORIENTED_EDGE ( 'NONE', *, *, #37, .F. ) ;
#95 = CARTESIAN_POINT ( 'NONE',  ( -2.694222958124177204E-15, 0.000000000000000000, 0.000000000000000000 ) ) ;
#96 = MANIFOLD_SOLID_BREP ( 'Ðý×', #39 ) ;
#97 = AXIS2_PLACEMENT_3D ( 'NONE', #18, #67, #34 ) ;
#98 = CC_DESIGN_PERSON_AND_ORGANIZATION_ASSIGNMENT ( #103, #132, ( #4 ) ) ;
#99 = CARTESIAN_POINT ( 'NONE',  ( 1.999999999999997113, 3.061616997868383043E-15, -25.00000000000000000 ) ) ;
#100 =( NAMED_UNIT ( * ) SI_UNIT ( $, .STERADIAN. ) SOLID_ANGLE_UNIT ( ) );
#101 = CARTESIAN_POINT ( 'NONE',  ( 0.000000000000000000, 0.000000000000000000, 25.00000000000000000 ) ) ;
#102 = APPROVAL ( #58, 'UNSPECIFIED' ) ;
#103 = PERSON_AND_ORGANIZATION ( #10, #6 ) ;
#104 = PERSON_AND_ORGANIZATION_ROLE ( 'creator' ) ;
#105 = EDGE_CURVE ( 'NONE', #156, #42, #154, .T. ) ;
#106 = DATE_AND_TIME ( #61, #88 ) ;
#107 = PRODUCT_DEFINITION_FORMATION_WITH_SPECIFIED_SOURCE ( 'ANY', '', #77, .NOT_KNOWN. ) ;
#108 = ORIENTED_EDGE ( 'NONE', *, *, #105, .F. ) ;
#109 = CC_DESIGN_APPROVAL ( #102, ( #14 ) ) ;
#110 = ORIENTED_EDGE ( 'NONE', *, *, #78, .F. ) ;
#111 = ADVANCED_FACE ( 'NONE', ( #83 ), #113, .F. ) ;
#112 = ADVANCED_BREP_SHAPE_REPRESENTATION ( 'BK7-RNDF-50-1', ( #96, #85 ), #12 ) ;
#113 = PLANE ( 'NONE',  #137 ) ;
#114 = DIRECTION ( 'NONE',  ( -1.000000000000000000, -0.000000000000000000, -0.000000000000000000 ) ) ;
#115 = CARTESIAN_POINT ( 'NONE',  ( 1.999999999999997113, 0.000000000000000000, 0.000000000000000000 ) ) ;
#116 = APPROVAL_PERSON_ORGANIZATION ( #171, #102, #59 ) ;
#117 = PERSON_AND_ORGANIZATION ( #10, #6 ) ;
#118 = COORDINATED_UNIVERSAL_TIME_OFFSET ( 8, 0, .AHEAD. ) ;
#119 = CC_DESIGN_DATE_AND_TIME_ASSIGNMENT ( #51, #130, ( #14 ) ) ;
#120 = DATE_AND_TIME ( #147, #73 ) ;
#121 = PERSON_AND_ORGANIZATION_ROLE ( 'classification_officer' ) ;
#122 = VECTOR ( 'NONE', #57, 1000.000000000000000 ) ;
#123 = EDGE_LOOP ( 'NONE', ( #108, #63, #15, #29 ) ) ;
#124 = EDGE_LOOP ( 'NONE', ( #16, #139 ) ) ;
#125 = FACE_OUTER_BOUND ( 'NONE', #54, .T. ) ;
#126 = CARTESIAN_POINT ( 'NONE',  ( 1.999999999999998224, 25.00000000000000000, 0.000000000000000000 ) ) ;
#127 = CYLINDRICAL_SURFACE ( 'NONE', #163, 25.00000000000000000 ) ;
#128 = CARTESIAN_POINT ( 'NONE',  ( 0.000000000000000000, 0.000000000000000000, 0.000000000000000000 ) ) ;
#129 = CC_DESIGN_PERSON_AND_ORGANIZATION_ASSIGNMENT ( #25, #121, ( #14 ) ) ;
#130 = DATE_TIME_ROLE ( 'classification_date' ) ;
#131 = PRODUCT_DEFINITION_SHAPE ( 'NONE', 'NONE',  #4 ) ;
#132 = PERSON_AND_ORGANIZATION_ROLE ( 'creator' ) ;
#133 = PERSON_AND_ORGANIZATION_ROLE ( 'design_owner' ) ;
#134 = CIRCLE ( 'NONE', #136, 25.00000000000000000 ) ;
#135 = ADVANCED_FACE ( 'NONE', ( #22 ), #165, .T. ) ;
#136 = AXIS2_PLACEMENT_3D ( 'NONE', #115, #161, #155 ) ;
#137 = AXIS2_PLACEMENT_3D ( 'NONE', #126, #32, #81 ) ;
#138 = DIRECTION ( 'NONE',  ( -1.000000000000000000, -0.000000000000000000, -0.000000000000000000 ) ) ;
#139 = ORIENTED_EDGE ( 'NONE', *, *, #143, .T. ) ;
#140 = DIRECTION ( 'NONE',  ( 0.000000000000000000, 0.000000000000000000, 1.000000000000000000 ) ) ;
#141 = CARTESIAN_POINT ( 'NONE',  ( 0.000000000000000000, 3.061616997868383043E-15, -25.00000000000000000 ) ) ;
#142 =( NAMED_UNIT ( * ) PLANE_ANGLE_UNIT ( ) SI_UNIT ( $, .RADIAN. ) );
#143 = EDGE_CURVE ( 'NONE', #42, #153, #158, .T. ) ;
#144 = DATE_AND_TIME ( #41, #8 ) ;
#145 = APPROVAL_DATE_TIME ( #120, #48 ) ;
#146 = COORDINATED_UNIVERSAL_TIME_OFFSET ( 8, 0, .AHEAD. ) ;
#147 = CALENDAR_DATE ( 2020, 22, 12 ) ;
#148 = CC_DESIGN_PERSON_AND_ORGANIZATION_ASSIGNMENT ( #26, #13, ( #107 ) ) ;
#149 = VECTOR ( 'NONE', #114, 1000.000000000000000 ) ;
#150 = AXIS2_PLACEMENT_3D ( 'NONE', #44, #152, #70 ) ;
#151 = APPLICATION_CONTEXT ( 'configuration controlled 3d designs of mechanical parts and assemblies' ) ;
#152 = DIRECTION ( 'NONE',  ( -1.000000000000000000, -0.000000000000000000, -0.000000000000000000 ) ) ;
#153 = VERTEX_POINT ( 'NONE', #35 ) ;
#154 = LINE ( 'NONE', #141, #122 ) ;
#155 = DIRECTION ( 'NONE',  ( 0.000000000000000000, 0.000000000000000000, 1.000000000000000000 ) ) ;
#156 = VERTEX_POINT ( 'NONE', #99 ) ;
#157 = DATE_AND_TIME ( #72, #160 ) ;
#158 = CIRCLE ( 'NONE', #150, 25.00000000000000000 ) ;
#159 = ADVANCED_FACE ( 'NONE', ( #125 ), #127, .T. ) ;
#160 = LOCAL_TIME ( 9, 29, 2.000000000000000000, #38 ) ;
#161 = DIRECTION ( 'NONE',  ( -1.000000000000000000, -0.000000000000000000, -0.000000000000000000 ) ) ;
#162 = DIRECTION ( 'NONE',  ( 0.000000000000000000, 0.000000000000000000, 1.000000000000000000 ) ) ;
#163 = AXIS2_PLACEMENT_3D ( 'NONE', #21, #64, #162 ) ;
#164 = EDGE_CURVE ( 'NONE', #153, #42, #169, .T. ) ;
#165 = CYLINDRICAL_SURFACE ( 'NONE', #92, 25.00000000000000000 ) ;
#166 = CARTESIAN_POINT ( 'NONE',  ( 1.999999999999997113, 0.000000000000000000, 25.00000000000000000 ) ) ;
#167 = UNCERTAINTY_MEASURE_WITH_UNIT (LENGTH_MEASURE( 1.000000000000000082E-05 ), #56, 'distance_accuracy_value', 'NONE');
#168 = AXIS2_PLACEMENT_3D ( 'NONE', #3, #31, #7 ) ;
#169 = CIRCLE ( 'NONE', #62, 25.00000000000000000 ) ;
#170 = APPROVAL_STATUS ( 'not_yet_approved' ) ;
#171 = PERSON_AND_ORGANIZATION ( #10, #6 ) ;
#172 = COORDINATED_UNIVERSAL_TIME_OFFSET ( 8, 0, .AHEAD. ) ;
#173 = APPLICATION_PROTOCOL_DEFINITION ( 'international standard', 'config_control_design', 1994, #151 ) ;
#174 = DIRECTION ( 'NONE',  ( 0.000000000000000000, 0.000000000000000000, 1.000000000000000000 ) ) ;
#175 = DESIGN_CONTEXT ( 'detailed design', #151, 'design' ) ;
ENDSEC;
END-ISO-10303-21;
